ISO-10303-21;
HEADER;
FILE_DESCRIPTION (( 'STEP AP203' ),
    '1' );
FILE_NAME ('QB-CTZQWP-25.4-780-M.STEP',
    '2020-12-24T01:51:18',
    ( '' ),
    ( '' ),
    'SwSTEP 2.0',
    'SolidWorks 2020',
    '' );
FILE_SCHEMA (( 'CONFIG_CONTROL_DESIGN' ));
ENDSEC;

DATA;
#1 = PERSON_AND_ORGANIZATION ( #130, #143 ) ;
#2 = COORDINATED_UNIVERSAL_TIME_OFFSET ( 8, 0, .AHEAD. ) ;
#3 = EDGE_CURVE ( 'NONE', #144, #146, #5, .T. ) ;
#4 = ORIENTED_EDGE ( 'NONE', *, *, #36, .F. ) ;
#5 = LINE ( 'NONE', #121, #115 ) ;
#6 = CARTESIAN_POINT ( 'NONE',  ( -3.000000000000000000, 0.000000000000000000, 15.00000000000000000 ) ) ;
#7 = APPROVAL_ROLE ( '' ) ;
#8 = DIRECTION ( 'NONE',  ( -1.000000000000000000, -0.000000000000000000, -0.000000000000000000 ) ) ;
#9 = LOCAL_TIME ( 9, 51, 18.00000000000000000, #167 ) ;
#10 = PERSON_AND_ORGANIZATION_ROLE ( 'creator' ) ;
#11 = COORDINATED_UNIVERSAL_TIME_OFFSET ( 8, 0, .AHEAD. ) ;
#12 = APPROVAL ( #58, 'UNSPECIFIED' ) ;
#13 = APPROVAL_ROLE ( '' ) ;
#14 = ADVANCED_FACE ( 'NONE', ( #137 ), #139, .T. ) ;
#15 = UNCERTAINTY_MEASURE_WITH_UNIT (LENGTH_MEASURE( 1.000000000000000082E-05 ), #42, 'distance_accuracy_value', 'NONE');
#16 = EDGE_LOOP ( 'NONE', ( #34, #172, #19, #4 ) ) ;
#17 = EDGE_CURVE ( 'NONE', #133, #61, #52, .T. ) ;
#18 = AXIS2_PLACEMENT_3D ( 'NONE', #27, #175, #108 ) ;
#19 = ORIENTED_EDGE ( 'NONE', *, *, #3, .T. ) ;
#20 = PLANE ( 'NONE',  #56 ) ;
#21 = ADVANCED_BREP_SHAPE_REPRESENTATION ( 'QB-CTZQWP-25.4-780-M', ( #76, #85 ), #30 ) ;
#22 = APPROVAL_PERSON_ORGANIZATION ( #154, #12, #7 ) ;
#23 = DIRECTION ( 'NONE',  ( 0.000000000000000000, 0.000000000000000000, 1.000000000000000000 ) ) ;
#24 = MECHANICAL_CONTEXT ( 'NONE', #102, 'mechanical' ) ;
#25 = DIRECTION ( 'NONE',  ( -1.000000000000000000, -0.000000000000000000, -0.000000000000000000 ) ) ;
#26 = DATE_AND_TIME ( #81, #152 ) ;
#27 = CARTESIAN_POINT ( 'NONE',  ( 3.000000000000000000, 0.000000000000000000, 0.000000000000000000 ) ) ;
#28 = DATE_AND_TIME ( #93, #62 ) ;
#29 = APPROVAL_DATE_TIME ( #120, #12 ) ;
#30 =( GEOMETRIC_REPRESENTATION_CONTEXT ( 3 ) GLOBAL_UNCERTAINTY_ASSIGNED_CONTEXT ( ( #15 ) ) GLOBAL_UNIT_ASSIGNED_CONTEXT ( ( #42, #82, #124 ) ) REPRESENTATION_CONTEXT ( 'NONE', 'WORKASPACE' ) );
#31 = EDGE_CURVE ( 'NONE', #146, #61, #159, .T. ) ;
#32 = ORIENTED_EDGE ( 'NONE', *, *, #51, .F. ) ;
#33 = CC_DESIGN_PERSON_AND_ORGANIZATION_ASSIGNMENT ( #1, #45, ( #90 ) ) ;
#34 = ORIENTED_EDGE ( 'NONE', *, *, #17, .F. ) ;
#35 = CARTESIAN_POINT ( 'NONE',  ( 3.000000000000000000, 1.836970198721029589E-15, -15.00000000000000000 ) ) ;
#36 = EDGE_CURVE ( 'NONE', #61, #146, #142, .T. ) ;
#37 = DIRECTION ( 'NONE',  ( -1.000000000000000000, -0.000000000000000000, -0.000000000000000000 ) ) ;
#38 = PERSON_AND_ORGANIZATION_ROLE ( 'creator' ) ;
#39 = EDGE_LOOP ( 'NONE', ( #129, #114 ) ) ;
#40 = AXIS2_PLACEMENT_3D ( 'NONE', #71, #37, #23 ) ;
#41 = PERSON_AND_ORGANIZATION ( #130, #143 ) ;
#42 =( LENGTH_UNIT ( ) NAMED_UNIT ( * ) SI_UNIT ( .MILLI., .METRE. ) );
#43 = ADVANCED_FACE ( 'NONE', ( #50 ), #20, .F. ) ;
#44 = SECURITY_CLASSIFICATION_LEVEL ( 'unclassified' ) ;
#45 = PERSON_AND_ORGANIZATION_ROLE ( 'design_owner' ) ;
#46 = DIRECTION ( 'NONE',  ( 1.000000000000000000, 0.000000000000000000, 0.000000000000000000 ) ) ;
#47 = CC_DESIGN_PERSON_AND_ORGANIZATION_ASSIGNMENT ( #111, #10, ( #125 ) ) ;
#48 = AXIS2_PLACEMENT_3D ( 'NONE', #66, #103, #151 ) ;
#49 = CC_DESIGN_SECURITY_CLASSIFICATION ( #169, ( #149 ) ) ;
#50 = FACE_OUTER_BOUND ( 'NONE', #101, .T. ) ;
#51 = EDGE_CURVE ( 'NONE', #144, #133, #75, .T. ) ;
#52 = LINE ( 'NONE', #55, #147 ) ;
#53 = CARTESIAN_POINT ( 'NONE',  ( -1.614212418857619014, 0.000000000000000000, 0.000000000000000000 ) ) ;
#54 = APPROVAL_PERSON_ORGANIZATION ( #57, #164, #13 ) ;
#55 = CARTESIAN_POINT ( 'NONE',  ( -1.614212418857619014, 1.836970198721029589E-15, -15.00000000000000000 ) ) ;
#56 = AXIS2_PLACEMENT_3D ( 'NONE', #64, #174, #94 ) ;
#57 = PERSON_AND_ORGANIZATION ( #130, #143 ) ;
#58 = APPROVAL_STATUS ( 'not_yet_approved' ) ;
#59 = AXIS2_PLACEMENT_3D ( 'NONE', #104, #135, #165 ) ;
#60 = AXIS2_PLACEMENT_3D ( 'NONE', #53, #77, #117 ) ;
#61 = VERTEX_POINT ( 'NONE', #118 ) ;
#62 = LOCAL_TIME ( 9, 51, 18.00000000000000000, #11 ) ;
#63 = CARTESIAN_POINT ( 'NONE',  ( -3.000000000000000000, 0.000000000000000000, 0.000000000000000000 ) ) ;
#64 = CARTESIAN_POINT ( 'NONE',  ( 3.000000000000000888, 12.69999999999999929, 0.000000000000000000 ) ) ;
#65 = PRODUCT_DEFINITION_SHAPE ( 'NONE', 'NONE',  #125 ) ;
#66 = CARTESIAN_POINT ( 'NONE',  ( 3.000000000000000000, 0.000000000000000000, 0.000000000000000000 ) ) ;
#67 = EDGE_CURVE ( 'NONE', #133, #144, #134, .T. ) ;
#68 = CALENDAR_DATE ( 2020, 24, 12 ) ;
#69 = DIRECTION ( 'NONE',  ( 0.000000000000000000, 0.000000000000000000, 1.000000000000000000 ) ) ;
#70 = APPLICATION_PROTOCOL_DEFINITION ( 'international standard', 'config_control_design', 1994, #102 ) ;
#71 = CARTESIAN_POINT ( 'NONE',  ( -3.000000000000000000, 0.000000000000000000, 0.000000000000000000 ) ) ;
#72 = CARTESIAN_POINT ( 'NONE',  ( 0.000000000000000000, 0.000000000000000000, 0.000000000000000000 ) ) ;
#73 = ADVANCED_FACE ( 'NONE', ( #148 ), #163, .F. ) ;
#74 = DESIGN_CONTEXT ( 'detailed design', #122, 'design' ) ;
#75 = CIRCLE ( 'NONE', #48, 15.00000000000000000 ) ;
#76 = MANIFOLD_SOLID_BREP ( 'Ðý×', #157 ) ;
#77 = DIRECTION ( 'NONE',  ( -1.000000000000000000, -0.000000000000000000, -0.000000000000000000 ) ) ;
#78 = AXIS2_PLACEMENT_3D ( 'NONE', #91, #25, #119 ) ;
#79 = DIRECTION ( 'NONE',  ( -1.000000000000000000, -0.000000000000000000, -0.000000000000000000 ) ) ;
#80 = CC_DESIGN_PERSON_AND_ORGANIZATION_ASSIGNMENT ( #41, #166, ( #149 ) ) ;
#81 = CALENDAR_DATE ( 2020, 24, 12 ) ;
#82 =( NAMED_UNIT ( * ) PLANE_ANGLE_UNIT ( ) SI_UNIT ( $, .RADIAN. ) );
#83 = APPLICATION_PROTOCOL_DEFINITION ( 'international standard', 'config_control_design', 1994, #122 ) ;
#84 = SHAPE_DEFINITION_REPRESENTATION ( #65, #21 ) ;
#85 = AXIS2_PLACEMENT_3D ( 'NONE', #72, #98, #46 ) ;
#86 = ORIENTED_EDGE ( 'NONE', *, *, #3, .F. ) ;
#87 = CC_DESIGN_APPROVAL ( #155, ( #125 ) ) ;
#88 = ORIENTED_EDGE ( 'NONE', *, *, #31, .F. ) ;
#89 = CARTESIAN_POINT ( 'NONE',  ( 3.000000000000000000, 0.000000000000000000, 15.00000000000000000 ) ) ;
#90 = PRODUCT ( 'QB-CTZQWP-25.4-780-M', 'QB-CTZQWP-25.4-780-M', '', ( #24 ) ) ;
#91 = CARTESIAN_POINT ( 'NONE',  ( -1.614212418857619014, 0.000000000000000000, 0.000000000000000000 ) ) ;
#92 = CC_DESIGN_DATE_AND_TIME_ASSIGNMENT ( #26, #126, ( #169 ) ) ;
#93 = CALENDAR_DATE ( 2020, 24, 12 ) ;
#94 = DIRECTION ( 'NONE',  ( -0.000000000000000000, 0.000000000000000000, 1.000000000000000000 ) ) ;
#95 = COORDINATED_UNIVERSAL_TIME_OFFSET ( 8, 0, .AHEAD. ) ;
#96 = PERSON_AND_ORGANIZATION_ROLE ( 'classification_officer' ) ;
#97 = COORDINATED_UNIVERSAL_TIME_OFFSET ( 8, 0, .AHEAD. ) ;
#98 = DIRECTION ( 'NONE',  ( 0.000000000000000000, 0.000000000000000000, 1.000000000000000000 ) ) ;
#99 = EDGE_LOOP ( 'NONE', ( #171, #131, #88, #86 ) ) ;
#100 = ADVANCED_FACE ( 'NONE', ( #161 ), #160, .T. ) ;
#101 = EDGE_LOOP ( 'NONE', ( #32, #158 ) ) ;
#102 = APPLICATION_CONTEXT ( 'configuration controlled 3d designs of mechanical parts and assemblies' ) ;
#103 = DIRECTION ( 'NONE',  ( -1.000000000000000000, -0.000000000000000000, -0.000000000000000000 ) ) ;
#104 = CARTESIAN_POINT ( 'NONE',  ( -3.000000000000000888, 12.69999999999999929, 0.000000000000000000 ) ) ;
#105 = APPROVAL_DATE_TIME ( #110, #155 ) ;
#106 = AXIS2_PLACEMENT_3D ( 'NONE', #63, #79, #69 ) ;
#107 = DATE_AND_TIME ( #68, #170 ) ;
#108 = DIRECTION ( 'NONE',  ( 0.000000000000000000, 0.000000000000000000, 1.000000000000000000 ) ) ;
#109 = APPROVAL_STATUS ( 'not_yet_approved' ) ;
#110 = DATE_AND_TIME ( #136, #141 ) ;
#111 = PERSON_AND_ORGANIZATION ( #130, #143 ) ;
#112 = CC_DESIGN_PERSON_AND_ORGANIZATION_ASSIGNMENT ( #150, #38, ( #149 ) ) ;
#113 = CC_DESIGN_APPROVAL ( #12, ( #169 ) ) ;
#114 = ORIENTED_EDGE ( 'NONE', *, *, #36, .T. ) ;
#115 = VECTOR ( 'NONE', #173, 1000.000000000000000 ) ;
#116 = PRODUCT_RELATED_PRODUCT_CATEGORY ( 'detail', '', ( #90 ) ) ;
#117 = DIRECTION ( 'NONE',  ( 0.000000000000000000, 0.000000000000000000, 1.000000000000000000 ) ) ;
#118 = CARTESIAN_POINT ( 'NONE',  ( -3.000000000000000000, 1.836970198721029589E-15, -15.00000000000000000 ) ) ;
#119 = DIRECTION ( 'NONE',  ( 0.000000000000000000, 0.000000000000000000, 1.000000000000000000 ) ) ;
#120 = DATE_AND_TIME ( #153, #9 ) ;
#121 = CARTESIAN_POINT ( 'NONE',  ( -1.614212418857619014, 0.000000000000000000, 15.00000000000000000 ) ) ;
#122 = APPLICATION_CONTEXT ( 'configuration controlled 3d designs of mechanical parts and assemblies' ) ;
#123 = APPROVAL_STATUS ( 'not_yet_approved' ) ;
#124 =( NAMED_UNIT ( * ) SI_UNIT ( $, .STERADIAN. ) SOLID_ANGLE_UNIT ( ) );
#125 = PRODUCT_DEFINITION ( 'UNKNOWN', '', #149, #74 ) ;
#126 = DATE_TIME_ROLE ( 'classification_date' ) ;
#127 = PERSON_AND_ORGANIZATION ( #130, #143 ) ;
#128 = CC_DESIGN_DATE_AND_TIME_ASSIGNMENT ( #28, #162, ( #125 ) ) ;
#129 = ORIENTED_EDGE ( 'NONE', *, *, #31, .T. ) ;
#130 = PERSON ( 'UNSPECIFIED', 'UNSPECIFIED', 'UNSPECIFIED', ('UNSPECIFIED'), ('UNSPECIFIED'), ('UNSPECIFIED') ) ;
#131 = ORIENTED_EDGE ( 'NONE', *, *, #17, .T. ) ;
#132 = CC_DESIGN_PERSON_AND_ORGANIZATION_ASSIGNMENT ( #127, #96, ( #169 ) ) ;
#133 = VERTEX_POINT ( 'NONE', #35 ) ;
#134 = CIRCLE ( 'NONE', #18, 15.00000000000000000 ) ;
#135 = DIRECTION ( 'NONE',  ( 1.000000000000000000, 0.000000000000000000, 0.000000000000000000 ) ) ;
#136 = CALENDAR_DATE ( 2020, 24, 12 ) ;
#137 = FACE_OUTER_BOUND ( 'NONE', #99, .T. ) ;
#138 = PERSON_AND_ORGANIZATION ( #130, #143 ) ;
#139 = CYLINDRICAL_SURFACE ( 'NONE', #60, 15.00000000000000000 ) ;
#140 = APPROVAL_ROLE ( '' ) ;
#141 = LOCAL_TIME ( 9, 51, 18.00000000000000000, #97 ) ;
#142 = CIRCLE ( 'NONE', #106, 15.00000000000000000 ) ;
#143 = ORGANIZATION ( 'UNSPECIFIED', 'UNSPECIFIED', '' ) ;
#144 = VERTEX_POINT ( 'NONE', #89 ) ;
#145 = APPROVAL_PERSON_ORGANIZATION ( #138, #155, #140 ) ;
#146 = VERTEX_POINT ( 'NONE', #6 ) ;
#147 = VECTOR ( 'NONE', #8, 1000.000000000000000 ) ;
#148 = FACE_OUTER_BOUND ( 'NONE', #39, .T. ) ;
#149 = PRODUCT_DEFINITION_FORMATION_WITH_SPECIFIED_SOURCE ( 'ANY', '', #90, .NOT_KNOWN. ) ;
#150 = PERSON_AND_ORGANIZATION ( #130, #143 ) ;
#151 = DIRECTION ( 'NONE',  ( 0.000000000000000000, 0.000000000000000000, 1.000000000000000000 ) ) ;
#152 = LOCAL_TIME ( 9, 51, 18.00000000000000000, #95 ) ;
#153 = CALENDAR_DATE ( 2020, 24, 12 ) ;
#154 = PERSON_AND_ORGANIZATION ( #130, #143 ) ;
#155 = APPROVAL ( #123, 'UNSPECIFIED' ) ;
#156 = CC_DESIGN_APPROVAL ( #164, ( #149 ) ) ;
#157 = CLOSED_SHELL ( 'NONE', ( #14, #43, #100, #73 ) ) ;
#158 = ORIENTED_EDGE ( 'NONE', *, *, #67, .F. ) ;
#159 = CIRCLE ( 'NONE', #40, 15.00000000000000000 ) ;
#160 = CYLINDRICAL_SURFACE ( 'NONE', #78, 15.00000000000000000 ) ;
#161 = FACE_OUTER_BOUND ( 'NONE', #16, .T. ) ;
#162 = DATE_TIME_ROLE ( 'creation_date' ) ;
#163 = PLANE ( 'NONE',  #59 ) ;
#164 = APPROVAL ( #109, 'UNSPECIFIED' ) ;
#165 = DIRECTION ( 'NONE',  ( 0.000000000000000000, 0.000000000000000000, -1.000000000000000000 ) ) ;
#166 = PERSON_AND_ORGANIZATION_ROLE ( 'design_supplier' ) ;
#167 = COORDINATED_UNIVERSAL_TIME_OFFSET ( 8, 0, .AHEAD. ) ;
#168 = APPROVAL_DATE_TIME ( #107, #164 ) ;
#169 = SECURITY_CLASSIFICATION ( '', '', #44 ) ;
#170 = LOCAL_TIME ( 9, 51, 18.00000000000000000, #2 ) ;
#171 = ORIENTED_EDGE ( 'NONE', *, *, #51, .T. ) ;
#172 = ORIENTED_EDGE ( 'NONE', *, *, #67, .T. ) ;
#173 = DIRECTION ( 'NONE',  ( -1.000000000000000000, -0.000000000000000000, -0.000000000000000000 ) ) ;
#174 = DIRECTION ( 'NONE',  ( -1.000000000000000000, 0.000000000000000000, -0.000000000000000000 ) ) ;
#175 = DIRECTION ( 'NONE',  ( -1.000000000000000000, -0.000000000000000000, -0.000000000000000000 ) ) ;
ENDSEC;
END-ISO-10303-21;
